[Всички песни]
[Скрий Акордите]
[Редактирай песента]

Печат
Гама
C : G : D : A : E : B : F# : C# : F : Bb : Eb : Ab : Db : Gb

Към таз земя


Изпълнител: Балканджи

Албум: Awake
Изпратил: egasimus

Интро:

    A
e |-------0--0-------------------|-------0--0-------------------|
b |-------5--5--5-------5--------|-------5--5--5-------5--------|
g |-------------6---------6------|-------------6---------6------|
d |-----7------------7------7----|-----7------------7------7----|
a |-0-7-----------7-----------7--|-0-7-----------7-----------7--|
e |------------------------------|------------------------------|

    F/-5                           A
e |-------0--0----------0--------|-------0--0-------------------|
b |-----6----6------------6------|-------5--5--5-------5--------|
g |--------------7---------------|-------------6---------6------|
d |---7----------7----7------7---|-----7------------7------7----|
a |-8------------8--8----------8-|-0-7-----------7-----------7--|
e |------------------------------|------------------------------|

Фон на първото соло:
(първия път, за акордите от втория път виж по-долу)

e |---------------------------------|    |------------------------|
b |---------------------------------|    |------------------------|
g |-----3-----2---------------------|    |-----3-----0------------|
d |---3-----3---3-------3-----5-----| x3 |---3-----3---3-2-0------|
a |-1-----0-------0---3-----5---5---|    |-1-----0----------------|
e |-----------------1-----3-------3-|    |------------------------|

Соло първо:
e |-6--5--6-5h6p5-5---5-6-8-5-6-8/10-8-6-5-|-6--5--6-5h6p5-5---5-6-5-------------------5-6-8-6-5/6-|
b |-----------------8----------------------|-----------------8-------8-6-5-------5-6-8-------------|
g |----------------------------------------|-------------------------------7-5-7-------------------|

e |-5/6--5-6--5h6p5-5---5-6-/10-8-6-8-6h8p6-5-6-5--|-6--5--6-5h6p5------------|
b |-------------------8----------------------------|---------------8-6-5------|
g |------------------------------------------------|---------------------7----|

Соло второ:
e |-6--5--6-5h6p5-5---5-6-8-6-8/10---8-6-5-|-6--5--6-5h6p5-5---5-6-5-------------------5-6-8-6-5---|
b |-----------------8----------------------|-----------------8-------8-6-5-------5-6-8-----------8-|
g |----------------------------------------|-------------------------------7-5-7-------------------|

e |----------------------------5----5-6--5-6-8--6-|-6--6-6-5------------|
b |-6--5-6--5h6p5---5-6-8--6-8----8---------------|------------6-5------|
g |---------------7-------------------------------|----------------7----|

Край:
e |-------1-0-------|
b |-----3-----3-----|
g |---2---------2---|
d |-0-------------0-|

--------------------------------------------------------------------------------

(Интро)

(Соло първо)

 [Dm]Към таз земя тръгвам от[F]ново,
 намирам я и ето [Dm]пак
 разпознавам себе [G]си в [A]някой друг.[Dm][Dsus2]

 Откривам сам това, което
 поставих и слагам край на
 страховете, защото пак съм тук.

 [Bb]Отварям очи и [Dm]виждам народа си,
 [Bb]прегръщам тълпата и [Dm]раждам се пак,
 [Bb]задъхан изкачвам [Dm]нагоре, към светлото
 и [G]мисля...
 [A]че не съм [Bb]сам.

...
 и [G]мисля...
 [F]че не [E]съм [Dm]сам.

 Към таз замя тръгвам отново
 и ето пак
 разпознавам себе си в някой друг.

 Откривам сам това, което
 поставих и слагам край на
 страховете, защото пак съм тук.

(Соло второ)
 [Bb A F G]x4

Към таз земя тръгвам отново,
намирам я и слагам край на
страховете, защото пак съм тук.

(Край)

[А от края може да се започне направо "Испанската песен" на Джендема...]

акорди за китара

акорди за пиано

© 2007-2017 akordite.com - Акорди и таблатури на български песни

Вход






Забравена парола
Нямате достъп?
Регистрирайте се!!!

Последни песни



Статистика

Песни: 1429
Потребители: 12948

В момента онлайн:

4 госта и 1 потребител
  • navireverse