[Всички песни]
[Скрий Акордите]
[Редактирай песента]

Печат
Гама
Am : Em : Bm : F#m : C#m : G#m : D#m : A#m : Dm : Gm : Dm : Fm : Bbm : Ebm : Abm

Миг от приказка


Изпълнител: Фанданго

Изпратил: roska@mail.vega.bg


Тук е една част от солото на китарата в
края на песента. Не знам до колко ще ви се стори
точно, нямам електрическа китара, а на класическа
не звучи по същия начин. Като намеря малко време
ще пратя и останалата част.
Солото съм го разположил върху табулатурата, а
акордите за другата (ритъм) китара са отгоре на
съответните места. Тези акорди са с малко по - 
различен ред от свирените по време на песента.

 Am	Bm	Em	D
|------|-------|-------|-------|e
|------|-------|-------|-------|a
|------|-------|-2-----|-4--5-5|d
|-2----|-4-----|-------|-----2-|g
|------|-------|-------|-------|b
|------|-------|-------|-------|e

 Am	Bm	Em	D
|------|-------|-------|-------|e
|------|-------|-------|-------|a
|------|-------|-2---45|-------|d
|-2----|-4-----|-------|2---24-|g
|------|-------|-------|------3|b
|------|-------|-------|-------|e

 Am	D	Am	D
|------|-------|-------|-------|e
|------|-------|-------|-------|a
|------|-------|-------|-------|d
|----54|2------|------5|-------|g
|5-----|-------|5----3-|3---35-|b
|------|-------|-------|------3|e

 Am	Bm	Em	D
|------|-------|-------|-------|e
|------|-------|-------|-------|a
|------|-------|-------|-------|d
|------|-------|-------|----24-|g
|------|7~3----|-------|------3|b
|5-----|-------|3----7-|5------|e

Със ~ съм означил легато. Последните
два реда се свирят и в началото на
песента като въведение (интродукция).

Приемам коментари и мнения всякакви,
особено от хора, изсвирили горното на
електрическа китара, с ефекти по
възможност. Може и да съм сбъркал някъде,
ще се радвам някой да ме коригира

акорди за китара

акорди за пиано

© 2007-2017 akordite.com - Акорди и таблатури на български песни

Вход






Забравена парола
Нямате достъп?
Регистрирайте се!!!

Последни песни



Статистика

Песни: 1411
Потребители: 12743

В момента онлайн:

11 госта и 2 потребителя
  • anchu_d
  • Emnima