[Всички песни]
[Скрий Акордите]
[Редактирай песента]

Печат
Гама
Am : Em : Bm : F#m : C#m : G#m : D#m : A#m : Dm : Gm : Dm : Fm : Bbm : Ebm : Abm

Мари-Aнна


Изпълнител: Уикеда

Изпратил: pulse@mail.bg 


Интродукция:

G|------------------------|------------------------|
D|---0-4-5----------------|---0-4-5----------------|
A|-2--------2--5-4-2-0---x|-2--------0-2-4-5-4----x|
E|------------------------|------------------------|


G|------------------------|------------------------|
D|---0-4-5----------------|---0-4-5----------------|
A|-2--------2--5-4-2-0---x|-2--------0-5-4-2-0---xx|
E|------------------------|------------------------|


Куплет:

G|------------------------|------------------------|
D|-----4-5----------------|---0-4-5----------------|
A|-2--------2--5-4-2-0---x|-2--------0-5-4-2-0---45|
E|------------------------|------------------------|


G|-------------7-6-4-2--0-----|------------------------|
D|---0-4-5----------------4-2-|---0-4-5----------------|
A|-2--------2-----------------|-2--------0-5-4-2-0---xx|
E|----------------------------|------------------------|


Припев:
(1)
G|------------------------------|------------------------------|
D|----------------7-7-----------|---------------4-7------------|
A|-2-2--------0-5----5----------|-2-2-------005----------------|
E|-----3-3-3-----------5-5-3-5--|-----3-3-3---------5-5-5-3-5--|


G|------------------------------|----------------------------|
D|----------------7-7-----------|---------------7----------0-|
A|-2-2--------0-5----5----------|-2-2-------0-5----------2---|
E|-----3-3-3-----------5-5-3-5--|-----3-3-3---------5--3-----|

(2)
G|-------------------------|------------------------|
D|---0-4-5-----------------|---0-4-5----------------|
A|-2--------2--5-4-2-0--x-x|-2--------0-5-4-2-0-----|
E|-------------------------|---------------------3-x|


G|-------------------------|-------------------------|
D|---0-4-5-----------------|---0-4-5----------------7|
A|-2--------2--5-4-2-0--x-x|-2--------0-5-4-2-0---5--|
E|-------------------------|-------------------------|





Конструкция на песента:

интродукция
куплет
припев1
припев2
куплет
припев1
припев2
куплет
припев1
припев2
соло (припев1 х2)
куплет
припев1
припев2
припев1
припев2


Забел.: Не съм спазвал стриктно дължините на нотите,
 затова ще е най-добре, ако слушате песента. 
Написал съм само първия куплет и припев, но по-нататък те се повтарят със съвсем малки вариации.
Ако желаете да ме допълните, или опровергаете, или пък нещо 
друго...вие знаете...пишете ми.

{x-заглушена струна с лявата ръка

акорди за китара

акорди за пиано

видео клип


© 2007-2017 akordite.com - Акорди и таблатури на български песни

Вход






Забравена парола
Нямате достъп?
Регистрирайте се!!!

Последни песни



Статистика

Песни: 1411
Потребители: 12531

В момента онлайн:

6 госта и 1 потребител
  • Jon Lord