[Всички песни]
[Скрий Акордите]
[Редактирай песента]

Печат
Гама
C : G : D : A : E : B : F# : C# : F : Bb : Eb : Ab : Db : Gb

Ел.Ей.-но моме


Изпълнител: Хиподил

Изпратил: z_pavlov@bitex.bg


           Play 6 times         
e||--------------------|--------------------|--------------------|
B||o------------------o|--------------------|--------------------|
G||--------------------|--------------------|--------------------|
D||--------------------|--------------------|--------------------|
A||o---66--66--66--66-o|----44--44--44--44--|----66--66--66--66--|
E||--44--44--44--44----|--22--22--22--22----|--44--44--44--44----|
                                Play 5 times            > 
e||--------------------|--------------------|--------------------|
B||o-------------------|-------------------o|--------------------|
G||--------------------|--------------------|--------------------|
D||----------33333333--|--------------------|-----------3--------|
A||o-4444444411111111--|--6666666666666666-o|--44444444-1--------|
E||--22222222----------|--4444444444444444--|--22222222----------|
     > > > > > > > >           Play 4 times
e||-------------------|--------------------|--------------------|
B||-------------------|o------------------o|--------------------|
G||-------------------|--------------------|--------------------|
D||-------------------|--------------------|--------------------|
A||--6-6-6-6-6-6-6-6--|o---66--66--66--66-o|----44--44--44--44--|
E||--4-4-4-4-4-4-4-4--|--44--44--44--44----|--22--22--22--22----|
                                                      Play 9 times
e||--------------------|--------------------|---------------------|
B||--------------------|o-------------------|--------------------o|
G||--------------------|--------------------|---------------------|
D||--------------------|----------33333333--|---------------------|
A||----66--66--66--66--|o-4444444411111111--|--6666666666666666--o|
E||--44--44--44--44----|--22222222----------|--4444444444444444---|
                          > > > > >     Drums...
e||--------------------|---------------|--------------------|
B||--------------------|---------------|--------------------|
G||--------------------|---------------|--------------------|
D||----------33333333--|---------------|--------------------|
A||--4444444411111111--|--6-6-6-6-6----|--------------------|
E||--22222222----------|--4-4-4-4-4----|--------------------|
          Play 4 times      
e||-------------------|-------------------|-------------------|
B||o-----------------o|o-----------------o|o-----------------o|
G||-------------------|-------------------|-------------------|
D||-------------------|-------------------|-------------------|
A||o-6-6-6-6-6-6-6-6-o|o-4-4-4-4-4-4-4-4-o|o-6-6-6-6-6-6-6-6-o|
E||--4-4-4-4-4-4-4-4--|--2-2-2-2-2-2-2-2--|--4-4-4-4-4-4-4-4--|
    |P.M............|   |P.M............|   |P.M............|
                                            
e||--------------------|--------------------|--------------------|
B||o-------------------|--------------------|--------------------|
G||--------------------|--------------------|--------------------|
D||--------------------|--3333333333333333--|--------------------|
A||o-4444444444444444--|--1111111111111111--|--6666666666666666--|
E||--2222222222222222--|--------------------|--4444444444444444--|
         
e||--------------------|--------------------|--------------------|
B||-------------------o|o-------------------|-------------------o|
G||--------------------|--------------------|--------------------|
D||--------------------|----------33333333--|--------------------|
A||--6666666666666666-o|o-4444444411111111--|--6666666666666666-o|
E||--4444444444444444--|--22222222----------|--4444444444444444--|

e||--------------------|--------------------|--------------------|
B||--------------------|--------------------|--------------------|
G||--------------------|--------------------|--------------------|
D||--------------------|--------------------|--------------------|
A||--6666666666666666--|--6666666666666666--|--4444444444444444--|
E||--4444444444444444--|--4444444444444444--|--2222222222222222--|
                                                     Play 3 times
e||--------------------|--------------------|--------------------|
B||--------------------|o-------------------|-------------------o|
G||--------------------|--------------------|--------------------|
D||--------------------|----------33333333--|--------------------|
A||--6666666666666666--|o-4444444411111111--|--6666666666666666-o|
E||--4444444444444444--|--22222222----------|--4444444444444444--|
                          > > > > >
e||--------------------|---------------||
B||--------------------|---------------||
G||--------------------|---------------||
D||----------33333333--|---------------||
A||--4444444411111111--|--6-6-6-6-6----||
E||--22222222----------|--4-4-4-4-4----||


акорди за китара

акорди за пиано

© 2007-2017 akordite.com - Акорди и таблатури на български песни

Вход






Забравена парола
Нямате достъп?
Регистрирайте се!!!

Последни песни



Статистика

Песни: 1411
Потребители: 12741

В момента онлайн:

10 госта и 3 потребителя
  • koliu
  • bossa666
  • izoalex