akordite.com - Акорди, таблатури и текстове на български песни

[Всички песни]
[Покажи Акордите]
[Редактирай песента]

Печат
Гама
Am : Em : Bm : F#m : C#m : G#m : D#m : A#m : Dm : Gm : Dm : Fm : Bbm : Ebm : Abm

Късно е


Изпълнител: Христо Славов

Изпратил: Христо Славов botev_cult@abv.bg


Соло:
E|-----------------------|-----------------------------|
B|----------3-3------3-3-|---------3-3------3-3~-1-----|
G|---------4--------0----|---------4--------0----------|
D|-------4--------4------|--0----4--------4------------|
A|-----0--------5--------|-4---0--------5--------------|
E|-----------------------|-----------------------------|

Cm   C     Am    E7
E|--0--|--0--|-0--|--0--|
B|--1--|--1--|-1--|--1--|
G|--2--|--0--|-2--|--0--|
D|--3--|--2--|-2--|--0--|
A|--0--|--3--|-0--|--2--|
E|-----|-----|----|-----|




соло:


Припев:
Късно е ,за всянанви  борби
Сам си под небето ,под всички звезди.
Не виждаш никаква опора,
В твоите приятели
Сам си срещо всички хора
За теб те се оказаха предатели.



Споменът бързо отминава
това е забрава.
Забравени от бога
ние живеем в злоба


Късно е за всякакви мечти
Да бяхте по рано мислили
Късно е за свобода
След хероина следва гроба


Припев:
Късно е ,за всянанви  борби
Сам си под небето ,под всички звезди.
Не виждаш никаква опора,
В твоите приятели
Сам си срещо всички хора
За теб те се оказаха предатели.


Тази песен е породена от нарастващия брой
зависими към наркотиците!!

акорди за китара

акорди за пиано

© 2007-2017 akordite.com - Акорди и таблатури на български песни

Вход






Забравена парола
Нямате достъп?
Регистрирайте се!!!

Статистика

Песни: 1446
Потребители: 13370

В момента онлайн:

8 госта