[Всички песни]
[Скрий Акордите]
[Редактирай песента]

Печат
Гама
C : G : D : A : E : B : F# : C# : F : Bb : Eb : Ab : Db : Gb

Нежно


Изпълнител: Хоризонт
Текст: "Хоризонт"
Музика: "Хоризонт"
Албум: "Нежно" (2003)
Изпратил: ivchovarna

Интро :

00:25

        C                F                          C                     F
  
e|-------------------------|--------------------------|---------------------|----------------------|
B|8--6--5---------8--6--5--|--------------------------|----------8--6--5----|----------------------|
G|---------5---------------|5-----------------2-5--2--|5--------------------|5---------------------|
D|-------------------------|--------------------------|---------------------|----------------------|
A|-------------------------|--------------------------|---------------------|----------------------|
E|-------------------------|--------------------------|---------------------|----------------------|

След първият припев :

01:36

C                 F                          C                     F
  
e|------------------|--------------------------|---------------------|----------------------|
B|---------8--6--5--|--------------------------|----------8--6--5----|----------------------|
G|5-----------------|5-----------------2-5--2--|5--------------------|5---------------------|
D|------------------|--------------------------|---------------------|----------------------|
A|------------------|--------------------------|---------------------|----------------------|
E|------------------|--------------------------|---------------------|----------------------|


Аутро :

03:20

C                 F                          C                     F
  
e|------------------|--------------------------|---------------------|----------------------|
B|---------8--6--5--|--------------------------|----------8--6--5----|----------------------|
G|5-----------------|5-----------------2-5--2--|5--------------------|5---------------------|
D|------------------|--------------------------|---------------------|----------------------|
A|------------------|--------------------------|---------------------|----------------------|
E|------------------|--------------------------|---------------------|----------------------

акорди за китара

акорди за пиано

видео клип


© 2007-2017 akordite.com - Акорди и таблатури на български песни

Вход






Забравена парола
Нямате достъп?
Регистрирайте се!!!

Последни песни



Статистика

Песни: 1411
Потребители: 12552

В момента онлайн:

4 госта