[Всички песни]
[Скрий Акордите]
[Редактирай песента]

Печат
Гама
C : G : D : A : E : B : F# : C# : F : Bb : Eb : Ab : Db : Gb

Колело


Изпълнител: P.I.F.

Изпратил: renegade_606

--------------------|--------------------|---------------------|----
------------3-------|------------3-------|------------3--------|----
---------------0----|---------------0----|---------------0-----|----
--------0---------0-|--------0---------0-|--------0---------0--|----
-----2--------------|-----0--------------|-----2---------------|----
-3------------------|-2------------------|-0-------------------|----


-------------------------------
----------------------3--------
--------0----------------0-----
-----2-----2-------0-----------
---3-----------2---------------
-------------------------------





акорди за китара

акорди за пиано

© 2007-2017 akordite.com - Акорди и таблатури на български песни

Вход






Забравена парола
Нямате достъп?
Регистрирайте се!!!

Последни песни



Статистика

Песни: 1429
Потребители: 12940

В момента онлайн:

5 госта и 1 потребител
  • agresor41