[Всички песни]
[Скрий Акордите]
[Редактирай песента]

Печат
Гама
C : G : D : A : E : B : F# : C# : F : Bb : Eb : Ab : Db : Gb

Бъди какъвто си


Изпълнител: Тангра
Текст: Александър Петров
Музика: Константин Цеков
Албум: "Тангра ІІ" (1985)
Изпратил: ivchovarna 

интро :

  Е                     D                    C#m   D            E
   e|------------------------------------------------------------------------------------------|
   B|------------------------------------------------------------------------------------------|
   G|------------------------------------------------------------------------------------------|
   D|-------------------5---------------------5------------------5--------------------5--------|
   A|5-7---5-7----5-4-5----4-5---4-5----5-4-5---2-4---5----5-4-5---5-7----5-7---5-4-5----------| 
   E|------------------------------------------------------------------------------------------|

   
  Е                     D                    C#m   D            E                     Em
   e|------------------------------------------------------------------------------------------|
   B|------------------------------------------------------------------------------------------|
   G|------------------------------------------------------------------------------------------|
   D|-------------------5---------------------5------------------5--------------------5-----2--|
   A|5-7---5-7----5-4-5----4-5---4-5----5-4-5---2-4---5----5-4-5---5-7----5-7---5-4-5-------2--|
   E|---------------------------------------------------------------------------------------0--|





Куплет 1 :

     Ро[E]дил съм се, изглежда, много надарен -
     по[D]не така родителите ми твърдят за мен.
     Уро[C#m]ци по пиано, ч[D]ужд език, солфеж - 
     и т[E]ехникум дори завърших с пълно 6.


Куплет 2 :

     И [E]ето че тогава семейният съвет - 
     съб[D]ра се и реши да въведе във мене ред.
     "Без д[C#m]иплом" - каза тате -"в ж[D]ивота не върви,
     бъд[E]и добро момче, залягай и учи".


Припев : 

     [E]О о о-о без д[A]иплом не вър[B]ви,
     [E]О о о-о зал[A]ягай и уч[B]и,
     [E]О о о-о без д[A]иплом не вър[B]ви,
     [E]О о о-о зал[A]ягай и у[B]чи,
     О оо[E]о


Куплет 3 : 

     Бях цели два сезона кандидат студент,
     но не ми достигна балът с един процент.
     Започнах да работя, свирех в ресторант -
     семейството въздъхна : "квартален музикант"!


Куплет 4 :

     Веднъж едно момиче във мене спря очи,
     усмихнах се и вместо "фа" изсвирих "ми",
     а тя ми каза: "о, не, ще бъда утре в 5
     във белоснежна рокля пред пети райсъвет".


Припев :
     
     О о о-о ще бъда утре в 5
     О о о-о пред пети райсъвет
     О о о-о ще бъда утре в 5
     О о о-о пред пети райсъвет
     О ооо, хей-хей-хей-хей...


Соло китара :
 

Куплет 5 :

     Смутено й прошепнах: "Вместо Менделсон
     не е ли по-добре да чуем Ролинг Стоунс?"
     но тя категорично ми отвърна: "Не"
     и мило се усмихна : "бъди добро момче"

Припев :

     О о о-о вместо Менделсон,
     О о о-о да чуем Ролинг Стоунс,
     О о о-о вместо Менделсон,
     О о о-о да чуем Ролинг Стоунс,
     О ооо!


Куплет 6 :

     Подстригах си косата без излишен шум,
     а след това от втория етаж във ЦУМ
     си купих нови дрехи, съвсем по моя ръст.
     И ето че на рок'енд'рола сложих кръст!


Куплет 7 :

     Момичето ме срещна със поглед променен
     и сякаш си роднина на Пиер Карден.
     Костюмът ми е точно и добре стои,
     но по-добре да бъдеш такъв, какъвто си.

     О о о-о бъди какъвто си
     О о о-о бъди какъвто си
     О о о-о бъди какъвто си
     О о о-о бъди какъвто си
     О о о-о бъди какъвто си
     О о о-о бъди какъвто си
     О о о-о бъди какъвто си ..

акорди за китара

акорди за пиано

видео клип


© 2007-2017 akordite.com - Акорди и таблатури на български песни

Вход






Забравена парола
Нямате достъп?
Регистрирайте се!!!

Последни песни



Статистика

Песни: 1411
Потребители: 12531

В момента онлайн:

6 госта и 1 потребител
  • Jon Lord