[Всички песни]
[Скрий Акордите]
[Редактирай песента]

Печат
Гама
C : G : D : A : E : B : F# : C# : F : Bb : Eb : Ab : Db : Gb

Въжен


Изпълнител: Хиподил
Текст: Светослав Витков
Музика: "Хиподил"
Албум: "Тъ` пест" (1999)
Изпратил: ivchovarna 

Интро :

  A5              C5 D5 C5 D5    G5               G5 A5 G5 B5 C5
   G|-----------------5/7---5/7----|------------------------------|
   D|7----------------5/7---5/7----|5-----------------5--------6/5|
   A|7----------------3/5---3/5----|5-----------------5--------6/5|
   E|5-5--55-555-5-5---------------|3-3--3-3-333-3-3--3-5--3---8/7|


Последните 2 акорда - "До" (C5) и "Си" (B5) - могат да бъдат изсвирени и от струна "Ла", съответно от 3-та и 2-ра позиция (вместо от 8-ма и 7-ма).

След това, мелодията е абсолютно същата - просто е забързана.



От 01:11 акордите са :

[C5]Набеди се че си [D5]Бог, [F5]забрави че [G5]си безсмъртен!
[C5]Изгуби се във обл[D5]ог, [F5]направи се [G5]на покъртен.


  D5               C5        F5              G5
   G|5----------------7---------10--------------12-------------|
   D|5----------------7---------10--------------12-------------|
   A|3----------------5---------8---------------10-------------|
   E|x----------------x---------x---------------x--------------|


Позиции : C5 - ІІІ ; D5 - V ; F5 - VІІІ ; G5 - XX 

Или както ви е удобно!


Това е цялатата песен.Приятно свирене!


акорди за китара

акорди за пиано

видео клип


© 2007-2017 akordite.com - Акорди и таблатури на български песни

Вход






Забравена парола
Нямате достъп?
Регистрирайте се!!!

Статистика

Песни: 1490
Потребители: 13645

В момента онлайн:

7 госта и 2 потребителя
  • Дедовъа
  • yordanova