[Всички песни]
[Скрий Акордите]
[Редактирай песента]

Печат
Гама
C : G : D : A : E : B : F# : C# : F : Bb : Eb : Ab : Db : Gb

Колело


Изпълнител: P.I.F.

Изпратил: Евгени Василев 


 
Това е основната тема, която се повтаря в цялата песен:

--------------------|--------------------|---------------------|----
------------3-------|------------3-------|------------3--------|----
---------------0----|---------------0----|---------------0-----|----
--------0---------0-|--------0---------0-|--------0---------0--|----
-----2--------------|-----0--------------|-----2---------------|----
-3------------------|-2------------------|-0-------------------|----


------------------------|-------------------------------------------
-------0-----------0----|-------------------------------------------
----2-----2-----4-----4-|-------------------------------------------
-3-----------5----------|-------------------------------------------
------------------------|-------------------------------------------
------------------------|------------------------------------------

акорди за китара

акорди за пиано

видео клип


© 2007-2017 akordite.com - Акорди и таблатури на български песни

Вход






Забравена парола
Нямате достъп?
Регистрирайте се!!!

Статистика

Песни: 1490
Потребители: 13511

В момента онлайн:

6 госта и 1 потребител
  • TuNam