[Всички песни]
[Скрий Акордите]
[Редактирай песента]

Печат
Гама
C : G : D : A : E : B : F# : C# : F : Bb : Eb : Ab : Db : Gb

Кой намаза със л*..


Изпълнител: Хиподил

Изпратил: z_pavlov@bitex.bg



      >       >          Play 3 times
e||----------------------------------|-----------------------------|
B||o--------------------------------o|-----------------------------|
G||-------------------8-7---5~~~-----|--5-5-5---5------------------|
D||---7---x-x-7---x-x-8-7---5~~~x-x--|--5-5-5---5---5-5---5---5-5--|
A||o--7---x-x-7---x-x-----------x-x-o|--3-3-3---3---5-5---5---5-5--|
E||---5---x-x-5---x-x-----------x-x--|--------------3-3---3---3-3--|
      >       >          Play 3 times
e||----------------------------------|-----------------------------|
B||o--------------------------------o|---tr----------tr------------|
G||-------------------8-7---5~~~-----|--5(6)~~~~~~~~7(8)~~~~~~~~~--|
D||---7---x-x-7---x-x-8-7---5~~~x-x--|-----------------------------|
A||o--7---x-x-7---x-x-----------x-x-o|-----------------------------|
E||---5---x-x-5---x-x-----------x-x--|-----------------------------|
      >       >          Play 3 times
e||----------------------------------|-----------------------------|
B||o--------------------------------o|-----------------------------|
G||-------------------8-7---5~~~-----|--5-5-5---5------------------|
D||---7---x-x-7---x-x-8-7---5~~~x-x--|--5-5-5---5---5-5---5---5-5--|
A||o--7---x-x-7---x-x-----------x-x-o|--3-3-3---3---5-5---5---5-5--|
E||---5---x-x-5---x-x-----------x-x--|--------------3-3---3---3-3--|
 
      >                  Play 3 times
e||----------------------------------|-----------------------------|
B||o--------------------------------o|-----------------------------|
G||-------------------8-7---5~~~-----|--5-5-5---5------------------|
D||---7---7-7-7-7-7-7-8-7---5~~~x-x--|--5-5-5---5---5-5---5---5-5--|
A||o--7---7-7-7-7-7-7-----------x-x-o|--3-3-3---3---5-5---5---5-5--|
E||---5---5-5-5-5-5-5-----------x-x--|--------------3-3---3---3-3--|
         |P.M........|
Next 4 bars play fast    Play 3 times
e||----------------------------------|-----------------------------------|
B||o--------------------------------o|-----------------------------------|
G||-------------------8-7---5~~~-----|--5-5-5-5-5-5-5-5------------------|
D||---7-7-7-7-7-7-7-7-8-7---5~~~-----|--5-5-5-5-5-5-5-5-5-5-5-5-5-5-5-5--|
A||o--7-7-7-7-7-7-7-7---------------o|--3-3-3-3-3-3-3-3-5-5-5-5-5-5-5-5--|
E||---5-5-5-5-5-5-5-5----------------|------------------3-3-3-3-3-3-3-3--|
                         Play 3 times
e||----------------------------------|-----------------------------------|
B||o--------------------------------o|-----------------------------------|
G||-------------------8-7---5~~~-----|--5-5-5-5-5-5-5-5------------------|
D||---7-7-7-7-7-7-7-7-8-7---5~~~-----|--5-5-5-5-5-5-5-5-5-5-5-5-5-5-5-5--|
A||o--7-7-7-7-7-7-7-7---------------o|--3-3-3-3-3-3-3-3-5-5-5-5-5-5-5-5--|
E||---5-5-5-5-5-5-5-5----------------|------------------3-3-3-3-3-3-3-3--|
 
      >       >          Play 3 times
e||----------------------------------|------------------------|
B||o--------------------------------o|------------------------|
G||-------------------8-7---5~~~-----|--5-5-5---5---7-7---7\--|
D||---7---x-x-7---x-x-8-7---5~~~x-x--|--5-5-5---5---7-7---7\--|
A||o--7---x-x-7---x-x-----------x-x-o|--3-3-3---3---5-5---5\--|
E||---5---x-x-5---x-x-----------x-x--|------------------------|
                                                        
      >       >          Play 3 times
e||----------------------------------|-----------------------------|
B||o--------------------------------o|---tr----------tr------------|
G||-------------------8-7---5~~~-----|--5(6)~~~~~~~~7(8)~~~~~~~~~--|
D||---7---x-x-7---x-x-8-7---5~~~x-x--|-----------------------------|
A||o--7---x-x-7---x-x-----------x-x-o|-----------------------------|
E||---5---x-x-5---x-x-----------x-x--|-----------------------------|
                         Play 3 times
e||----------------------------------|-----------------------------------|
B||o--------------------------------o|-----------------------------------|
G||-------------------8-7---5~~~-----|--5-5-5-5-5-5-5-5------------------|
D||---7-7-7-7-7-7-7-7-8-7---5~~~-----|--5-5-5-5-5-5-5-5-5-5-5-5-5-5-5-5--|
A||o--7-7-7-7-7-7-7-7---------------o|--3-3-3-3-3-3-3-3-5-5-5-5-5-5-5-5--|
E||---5-5-5-5-5-5-5-5----------------|------------------3-3-3-3-3-3-3-3--|
                         Play 3 times
e||----------------------------------|-----------------------------------|
B||o--------------------------------o|-----------------------------------|
G||-------------------8-7---5~~~-----|--5-5-5-5-5-5-5-5------------------|
D||---7-7-7-7-7-7-7-7-8-7---5~~~-----|--5-5-5-5-5-5-5-5-5-5-5-5-5-5-5-5--|
A||o--7-7-7-7-7-7-7-7---------------o|--3-3-3-3-3-3-3-3-5-5-5-5-5-5-5-5--|
E||---5-5-5-5-5-5-5-5----------------|------------------3-3-3-3-3-3-3-3--|
                         Play 3 times
e||----------------------------------|-----------------------------------|
B||o--------------------------------o|-----------------------------------|
G||-------------------8-7---5~~~-----|--5-5-5-5-5-5-5-5------------------|
D||---7-7-7-7-7-7-7-7-8-7---5~~~-----|--5-5-5-5-5-5-5-5-5-5-5-5-5-5-5-5--|
A||o--7-7-7-7-7-7-7-7---------------o|--3-3-3-3-3-3-3-3-5-5-5-5-5-5-5-5--|
E||---5-5-5-5-5-5-5-5----------------|------------------3-3-3-3-3-3-3-3--|
                     Play 3 times                                     > 
e||------------------------------|---------------------------------|-----|
B||o----------------------------o|---------------------------------|-----|
G||-------------------8-7---5~~~-|--5-5-5-5-5-5-5-5----------------|-----|
D||---7-7-7-7-7-7-7-7-8-7---5~~~-|--5-5-5-5-5-5-5-5-5-5---5-----5--|--7--|
A||o--7-7-7-7-7-7-7-7-----------o|--3-3-3-3-3-3-3-3-5-5---5-----5--|--7--|
E||---5-5-5-5-5-5-5-5------------|------------------3-3---3-----3--|--5--|


акорди за китара

акорди за пиано

© 2007-2017 akordite.com - Акорди и таблатури на български песни

Вход






Забравена парола
Нямате достъп?
Регистрирайте се!!!

Последни песни



Статистика

Песни: 1429
Потребители: 13018

В момента онлайн:

8 госта и 3 потребителя
  • dudeka
  • baiigra4
  • durtiq666