[Всички песни]
[Скрий Акордите]
[Редактирай песента]

Печат
Гама
Am : Em : Bm : F#m : C#m : G#m : D#m : A#m : Dm : Gm : Dm : Fm : Bbm : Ebm : Abm

Сине сине


Изпълнител: Севдалина Спасова

Изпратил: Jacsons

Intro
e--------------------------------------------------------------------
b-----6-6-6-6-6--5-5-6-5--6-5-------------------6-5------5-6h8p6-5-6-
g-----------------------------7-5-------------------7-6-7------------
d--7------------------------------8-7---7-7-7-7----------------------


e------5---5--------5-6--5-6-5---5-6-5-6-5-----------5h6p5--5--------
b--6-8---8--8-6---8-----------8------------8-6-5-6--8------8---------
g-5--------------7-------------------------------------------------------


                                 /4\
e------5---5--------5-6--5-6-5---5h6p5---------------------------------
b--6-8---8--8-6---8-----------8------------8-6-5---5--6-5-------------
g-5--------------7--------------------------------7--------7-6-7-------



  Dm                A
Мое малко, слънчево дете,
                     Dm
ти ми даде щастие и сила;
 Dm         Gm            Dm
всеки ден и всяка нощ съм с теб
           A        Dm
и се моля Бог да те закриля.


fill
e---------------0-------
b--------0--2-3--------
g--2-1-2---------------



Припев:
Dm                      A
Сине, сине, ти си ангел мой,
                       Dm
сине, сине, Бог ли те изпрати
                  F        Gm
да топлиш, сине, майчино сърце,
Dm           A           Dm
да те обичам и да ти се радвам.


Твойте детски, хубави очи
нещо искат, сине, да ми кажат;
думите са твоите сълзи,
малък си, нищо ти не знаеш.

Припев…

Твойте нежни, мънички ръце
все към мене, сине, ги протягаш;
ти ще станеш, сине, някой ден,
бащин дом и своя род да пазиш.

Припев‼/span>


акорди за китара

акорди за пиано

видео клип


© 2007-2014 akordite.com - Акорди и таблатури на български песни

Вход






Забравена парола
Нямате достъп?
Регистрирайте се!!!

Статистика

Песни: 1147
Потребители: 8851

В момента онлайн:

10 госта и 1 потребител
  • v0rt3x