[Всички песни]
[Скрий Акордите]
[Редактирай песента]

Печат
Гама
C : G : D : A : E : B : F# : C# : F : Bb : Eb : Ab : Db : Gb

Истина


Изпълнител: Милена

Изпратил: Йорданка Спирова, trinity_sandman@hotmail.com


ИНТРО:  
   E              B              F#m            A(5)
E|---------0----|---------2----|---------2----|---------5---4|
B|-----0---0----|-----4---4----|-----2---2----|-----5---5----|
G|---1-----1----|---4-----4----|---2-----2----|---6-----6----|
D|---------2----|---------4----|---------4----|---------7----|
A|--------------|-2------------|--------------|--------------|
e|-0------------|--------------|-2------------|-5------------|
  
   E              B              F#m            A(5)
E|---------0----|---------2----|---------2----|-5---5---5---4--|
B|-----0---0----|-----4---4----|-----2---2----|-5--------------|
G|---1-----1----|---4-----4----|---2-----2----|-6--------------|
D|---------2----|---------4----|---------4----|-7--------------|
A|--------------|-2------------|--------------|-7--------------|
e|-0------------|--------------|-2------------|-5--------------|


   E              B              F#m            A(5)
E|---------0----|---------2----|---------2----|---------5---4|
B|-----0---0----|-----4---4----|-----2---2----|-----5---5----|
G|---1-----1----|---4-----4----|---2-----2----|---6-----6----|
D|---------2----|---------4----|---------4----|---------7----|
A|--------------|-2------------|--------------|--------------|
e|-0------------|--------------|-2------------|-5------------|


   E              B              F#m            A(5)
E|---------0----|---------2----|---------2----|-5--------------|
B|-----0---0----|-----4---4----|-----2---2----|-5-5------------|
G|---1-----1----|---4-----4----|---2-----2----|-6---6-6--------|
D|---------2----|---------4----|---------4----|-7-------7-7----|
A|--------------|-2------------|--------------|-7-----------7--|
e|-0------------|--------------|-2------------|-5--------------|



За куплетите и припева:
   E              B              F#m            A(5)
E|---------0----|---------2----|---------2----|---------5---4|
B|-----0---0----|-----4---4----|-----2---2----|-----5---5----|
G|---1-----1----|---4-----4----|---2-----2----|---6-----6----|
D|---------2----|---------4----|---------4----|---------7----|
A|--------------|-2------------|--------------|--------------|
e|-0------------|--------------|-2------------|-5------------|
                  Някой ли открадна...



ТЕКСТ:
1.
   Някой ли открадна сърцето ти
   което плачеше нощем на сън
   Увяхна нещо вътре в тебе
   не поглеждаш дори навън
2.
   Ще оставиш ли това 
   за което си мечтал
   и с години си се борил
   път по който си вървял


ПРИПЕВ:
   Някой ден сърцето, ще пойска ей това
   което ти си му отнемал 
   без дори да си разбрал
   Някой ден сърцето, ще те съди за това
   за това че много си го лъгал
3.
   Никога не казвай "Да"
   когато чуствата ги няма в теб
   когато ровиш в твойта самота
   пак се луташ за кой ли път
4.
   Уморен от своя бяг
   продължаваш все натам
   вътре някъде дълбоко в теб
   и винаги оставаш сам


ПРИПЕВ:...

********************************************************************
Изпратил: sv_ivanov@yahoo.com(Светозар Иванов)


1.
E  / B               /  F#m
   Някой ли открадна сърцето ти
        /        A       / E
   което плачеше нощем на сън
   /  B             /  F#m
   Увяхна нещо вътре в тебе
      /      A         /  E
   не поглеждаш дори навън

2.
   Ще оставиш ли това 
   за което си мечтал
   и с години си се борил
   път по който си вървял

пр.
   Някой ден сърцето, ще пойска ей това
   което ти си му отнемал 
   без дори да си разбрал
   Някой ден сърцето, ще те съди за това
   за това че много си го лъгал

3.
   Никога не казвай "Да"
   когато чуствата ги няма в теб
   когато ровиш в твойта самота
   пак се луташ за кой ли път

4.
   Уморен от своя бяг
   продължаваш все натам
   вътре някъде дълбоко в теб
   и винаги оставаш сам

   пр................

Цялата песен е със следните 4 акорда
E , B , F#m , A
Единствено по време на солото акордите са следните
C , G , Dm , F



акорди за китара

акорди за пиано

видео клип


© 2007-2017 akordite.com - Акорди и таблатури на български песни

Вход






Забравена парола
Нямате достъп?
Регистрирайте се!!!

Последни песни



Статистика

Песни: 1411
Потребители: 12625

В момента онлайн:

1 гост